  0
SECTION
  2
HEADER
  9
$ACADVER
  1
AC1009
  9
$INSBASE
 10
472.5011388661339
 20
173.8794548661339
 30
0.0
  9
$EXTMIN
 10
472.5011388661339
 20
173.8794548661339
 30
0.0
  9
$EXTMAX
 10
515.3297931338661
 20
244.917034133866
 30
0.0
  9
$LIMMIN
 10
0.0
 20
0.0
  9
$LIMMAX
 10
420.0
 20
297.0
  9
$ORTHOMODE
 70
     0
  9
$REGENMODE
 70
     1
  9
$FILLMODE
 70
     1
  9
$QTEXTMODE
 70
     0
  9
$MIRRTEXT
 70
     0
  9
$DRAGMODE
 70
     2
  9
$LTSCALE
 40
1.0
  9
$OSMODE
 70
     0
  9
$ATTMODE
 70
     1
  9
$TEXTSIZE
 40
3.5
  9
$TRACEWID
 40
0.05
  9
$TEXTSTYLE
  7
STANDARD
  9
$CLAYER
  8
0
  9
$CELTYPE
  6
BYLAYER
  9
$CECOLOR
 62
   256
  9
$DIMSCALE
 40
1.0
  9
$DIMASZ
 40
2.5
  9
$DIMEXO
 40
1.0
  9
$DIMDLI
 40
8.0
  9
$DIMRND
 40
0.0
  9
$DIMDLE
 40
0.0
  9
$DIMEXE
 40
2.0
  9
$DIMTP
 40
0.1
  9
$DIMTM
 40
0.1
  9
$DIMTXT
 40
3.5
  9
$DIMCEN
 40
2.0
  9
$DIMTSZ
 40
0.0
  9
$DIMTOL
 70
     0
  9
$DIMLIM
 70
     0
  9
$DIMTIH
 70
     0
  9
$DIMTOH
 70
     0
  9
$DIMSE1
 70
     0
  9
$DIMSE2
 70
     0
  9
$DIMTAD
 70
     1
  9
$DIMZIN
 70
     8
  9
$DIMBLK
  1

  9
$DIMASO
 70
     0
  9
$DIMSHO
 70
     0
  9
$DIMPOST
  1

  9
$DIMAPOST
  1

  9
$DIMALT
 70
     0
  9
$DIMALTD
 70
     2
  9
$DIMALTF
 40
25.39999999999999
  9
$DIMLFAC
 40
1.0
  9
$DIMTOFL
 70
     1
  9
$DIMTVP
 40
0.0
  9
$DIMTIX
 70
     0
  9
$DIMSOXD
 70
     0
  9
$DIMSAH
 70
     0
  9
$DIMBLK1
  1

  9
$DIMBLK2
  1

  9
$DIMSTYLE
  2
*UNNAMED
  9
$DIMCLRD
 70
     0
  9
$DIMCLRE
 70
     0
  9
$DIMCLRT
 70
     0
  9
$DIMTFAC
 40
1.0
  9
$DIMGAP
 40
0.09
  9
$LUNITS
 70
     2
  9
$LUPREC
 70
     3
  9
$SKETCHINC
 40
0.1
  9
$FILLETRAD
 40
20.0
  9
$AUNITS
 70
     0
  9
$AUPREC
 70
     3
  9
$MENU
  1

  9
$ELEVATION
 40
0.0
  9
$PELEVATION
 40
0.0
  9
$THICKNESS
 40
0.0
  9
$LIMCHECK
 70
     0
  9
$BLIPMODE
 70
     0
  9
$CHAMFERA
 40
0.0
  9
$CHAMFERB
 40
0.0
  9
$SKPOLY
 70
     1
  9
$TDCREATE
 40
2449058.579187384
  9
$TDUPDATE
 40
2449393.453367939
  9
$TDINDWG
 40
0.0014736111
  9
$TDUSRTIMER
 40
0.0014736111
  9
$USRTIMER
 70
     1
  9
$ANGBASE
 50
0.0
  9
$ANGDIR
 70
     0
  9
$PDMODE
 70
     3
  9
$PDSIZE
 40
2.0
  9
$PLINEWID
 40
0.0
  9
$COORDS
 70
     2
  9
$SPLFRAME
 70
     0
  9
$SPLINETYPE
 70
     6
  9
$SPLINESEGS
 70
     8
  9
$ATTDIA
 70
     1
  9
$ATTREQ
 70
     1
  9
$HANDLING
 70
     0
  9
$HANDSEED
  5
7D
  9
$SURFTAB1
 70
     6
  9
$SURFTAB2
 70
     6
  9
$SURFTYPE
 70
     6
  9
$SURFU
 70
     6
  9
$SURFV
 70
     6
  9
$UCSNAME
  2

  9
$UCSORG
 10
0.0
 20
0.0
 30
0.0
  9
$UCSXDIR
 10
1.0
 20
0.0
 30
0.0
  9
$UCSYDIR
 10
0.0
 20
1.0
 30
0.0
  9
$PUCSNAME
  2

  9
$PUCSORG
 10
0.0
 20
0.0
 30
0.0
  9
$PUCSXDIR
 10
1.0
 20
0.0
 30
0.0
  9
$PUCSYDIR
 10
0.0
 20
1.0
 30
0.0
  9
$USERI1
 70
     0
  9
$USERI2
 70
     3
  9
$USERI3
 70
    15
  9
$USERI4
 70
     0
  9
$USERI5
 70
     0
  9
$USERR1
 40
0.0
  9
$USERR2
 40
1.0
  9
$USERR3
 40
0.0
  9
$USERR4
 40
1.0
  9
$USERR5
 40
0.0
  9
$WORLDVIEW
 70
     1
  9
$SHADEDGE
 70
     3
  9
$SHADEDIF
 70
    70
  9
$TILEMODE
 70
     1
  9
$MAXACTVP
 70
    16
  9
$PINSBASE
 10
0.0
 20
0.0
 30
0.0
  9
$PLIMCHECK
 70
     0
  9
$PEXTMIN
 10
1.000000000000000E+20
 20
1.000000000000000E+20
 30
1.000000000000000E+20
  9
$PEXTMAX
 10
-1.000000000000000E+20
 20
-1.000000000000000E+20
 30
-1.000000000000000E+20
  9
$PLIMMIN
 10
0.0
 20
0.0
  9
$PLIMMAX
 10
12.0
 20
9.0
  9
$UNITMODE
 70
     0
  9
$VISRETAIN
 70
     0
  9
$PLINEGEN
 70
     0
  9
$PSLTSCALE
 70
     0
  9
$TREEDEPTH
 70
  3020
  9
$DWGCODEPAGE
  3
undefined
  0
ENDSEC
  0
SECTION
  2
TABLES
  0
TABLE
  2
VPORT
 70
     2
  0
VPORT
  2
*ACTIVE
 70
     0
 10
0.0
 20
0.0
 11
1.0
 21
1.0
 12
521.5427447943394
 22
212.3230866318881
 13
0.0
 23
0.0
 14
7.0
 24
7.0
 15
0.0
 25
0.0
 16
0.0
 26
0.0
 36
1.0
 17
0.0
 27
0.0
 37
0.0
 40
76.8872635315085
 41
1.275675675675675
 42
50.0
 43
0.0
 44
0.0
 50
0.0
 51
0.0
 71
     0
 72
 10000
 73
     1
 74
     0
 75
     0
 76
     0
 77
     0
 78
     0
  0
ENDTAB
  0
TABLE
  2
LTYPE
 70
     2
  0
LTYPE
  2
AUSGEZOGEN
 70
    64
  3
Solid line
 72
    65
 73
     0
 40
0.0
  0
LTYPE
  2
ITEM-STRICHPGR
 70
    64
  3
____ . ____ . ____ . ____ . ____ . ____ . ____
 72
    65
 73
     4
 40
15.0
 49
10.0
 49
-2.5
 49
0.0
 49
-2.5
  0
ENDTAB
  0
TABLE
  2
LAYER
 70
     4
  0
LAYER
  2
0
 70
    64
 62
     7
  6
AUSGEZOGEN
  0
LAYER
  2
ITEM_50
 70
    64
 62
     7
  6
AUSGEZOGEN
  0
LAYER
  2
ITEM_HILFE
 70
    64
 62
     3
  6
AUSGEZOGEN
  0
LAYER
  2
ITEM_STPG
 70
    64
 62
     4
  6
ITEM-STRICHPGR
  0
ENDTAB
  0
TABLE
  2
STYLE
 70
     1
  0
STYLE
  2
STANDARD
 70
     0
 40
0.0
 41
1.0
 50
0.0
 71
     0
 42
3.5
  3
iso
  4

  0
ENDTAB
  0
TABLE
  2
VIEW
 70
     0
  0
ENDTAB
  0
TABLE
  2
UCS
 70
     0
  0
ENDTAB
  0
TABLE
  2
APPID
 70
     1
  0
APPID
  2
ACAD
 70
    64
  0
ENDTAB
  0
TABLE
  2
DIMSTYLE
 70
     0
  0
ENDTAB
  0
ENDSEC
  0
SECTION
  2
BLOCKS
  0
ENDSEC
  0
SECTION
  2
ENTITIES
  0
ARC
  8
ITEM_50
 10
485.915466
 20
187.2937819999999
 30
0.0
 40
10.0
 50
3.678018999999999
 51
356.3219809999999
  0
POINT
  8
ITEM_HILFE
 10
485.915466
 20
187.2937819999999
 30
0.0
  0
POINT
  8
ITEM_HILFE
 10
503.915466
 20
233.5027069999999
 30
0.0
  0
POINT
  8
ITEM_HILFE
 10
473.915466
 20
223.5027069999999
 30
0.0
  0
POINT
  8
ITEM_HILFE
 10
513.915466
 20
223.5027069999999
 30
0.0
  0
POINT
  8
ITEM_HILFE
 10
513.915466
 20
243.5027069999999
 30
0.0
  0
POINT
  8
ITEM_HILFE
 10
473.915466
 20
243.5027069999999
 30
0.0
  0
POINT
  8
ITEM_HILFE
 10
485.915466
 20
243.5027069999999
 30
0.0
  0
POINT
  8
ITEM_HILFE
 10
485.915466
 20
223.5027069999999
 30
0.0
  0
POINT
  8
ITEM_HILFE
 10
503.915466
 20
175.2937819999999
 30
0.0
  0
POINT
  8
ITEM_HILFE
 10
473.915466
 20
175.2937819999999
 30
0.0
  0
POINT
  8
ITEM_HILFE
 10
513.915466
 20
175.2937819999999
 30
0.0
  0
POINT
  8
ITEM_HILFE
 10
503.915466
 20
199.2937819999999
 30
0.0
  0
POINT
  8
ITEM_HILFE
 10
513.915466
 20
199.2937819999999
 30
0.0
  0
POINT
  8
ITEM_HILFE
 10
473.915466
 20
199.2937819999999
 30
0.0
  0
LINE
  8
0
 10
511.915466
 20
187.935277
 30
0.0
 11
511.915466
 21
186.652287
 31
0.0
  0
LINE
  8
ITEM_50
 10
507.915466
 20
203.2937819999999
 30
0.0
 11
499.915466
 21
203.2937819999999
 31
0.0
  0
LINE
  8
ITEM_50
 10
499.915466
 20
199.2937819999999
 30
0.0
 11
499.915466
 21
203.2937819999999
 31
0.0
  0
LINE
  8
ITEM_50
 10
507.915466
 20
199.2937819999999
 30
0.0
 11
507.915466
 21
203.2937819999999
 31
0.0
  0
LINE
  8
ITEM_50
 10
495.894869
 20
187.935277
 30
0.0
 11
511.915466
 21
187.935277
 31
0.0
  0
LINE
  8
ITEM_50
 10
495.894869
 20
186.652287
 30
0.0
 11
511.915466
 21
186.652287
 31
0.0
  0
LINE
  8
ITEM_50
 10
511.915466
 20
199.2937819999999
 30
0.0
 11
475.915466
 21
199.2937819999999
 31
0.0
  0
LINE
  8
ITEM_50
 10
511.915466
 20
175.2937819999999
 30
0.0
 11
475.915466
 21
175.2937819999999
 31
0.0
  0
LINE
  8
ITEM_STPG
 10
503.915466
 20
225.7797149999999
 30
0.0
 11
503.915466
 21
241.205248
 31
0.0
  0
LINE
  8
ITEM_50
 10
513.915466
 20
197.2937819999999
 30
0.0
 11
513.915466
 21
177.2937819999999
 31
0.0
  0
LINE
  8
ITEM_STPG
 10
503.915466
 20
205.2303039999999
 30
0.0
 11
503.915466
 21
173.9052939999999
 31
0.0
  0
ARC
  8
ITEM_50
 10
511.915466
 20
197.2937819999999
 30
0.0
 40
2.0
 50
0.0
 51
90.0
  0
LINE
  8
ITEM_STPG
 10
485.915466
 20
198.337872
 30
0.0
 11
485.915466
 21
176.85746
 31
0.0
  0
LINE
  8
ITEM_STPG
 10
515.15625
 20
187.2937819999999
 30
0.0
 11
472.959449
 21
187.2937819999999
 31
0.0
  0
LINE
  8
ITEM_STPG
 10
485.915466
 20
222.503083
 30
0.0
 11
485.915466
 21
244.0251729999999
 31
0.0
  0
ARC
  8
ITEM_50
 10
474.915466
 20
224.5027069999999
 30
0.0
 40
1.0
 50
180.0
 51
270.0
  0
LINE
  8
ITEM_50
 10
473.915466
 20
242.5027069999999
 30
0.0
 11
473.915466
 21
224.5027069999999
 31
0.0
  0
ARC
  8
ITEM_50
 10
474.915466
 20
242.5027069999999
 30
0.0
 40
1.0
 50
90.0
 51
180.0
  0
LINE
  8
ITEM_50
 10
512.915466
 20
243.5027069999999
 30
0.0
 11
474.915466
 21
243.5027069999999
 31
0.0
  0
ARC
  8
ITEM_50
 10
512.915466
 20
242.5027069999999
 30
0.0
 40
1.0
 50
0.0
 51
90.0
  0
LINE
  8
ITEM_50
 10
513.915466
 20
224.5027069999999
 30
0.0
 11
513.915466
 21
242.5027069999999
 31
0.0
  0
ARC
  8
ITEM_50
 10
512.915466
 20
224.5027069999999
 30
0.0
 40
1.0
 50
270.0
 51
0.0
  0
LINE
  8
ITEM_50
 10
474.915466
 20
223.5027069999999
 30
0.0
 11
512.915466
 21
223.5027069999999
 31
0.0
  0
ARC
  8
ITEM_50
 10
511.915466
 20
177.2937819999999
 30
0.0
 40
2.0
 50
270.0
 51
0.0
  0
ARC
  8
ITEM_50
 10
475.915466
 20
197.2937819999999
 30
0.0
 40
2.0
 50
88.77449399999999
 51
180.0
  0
ARC
  8
ITEM_50
 10
475.915466
 20
177.2937819999999
 30
0.0
 40
2.0
 50
180.0
 51
271.2255059999999
  0
LINE
  8
ITEM_50
 10
473.915466
 20
177.2937819999999
 30
0.0
 11
473.915466
 21
197.2937819999999
 31
0.0
  0
LINE
  8
ITEM_50
 10
509.415466
 20
230.3272809999999
 30
0.0
 11
508.915466
 21
230.615956
 31
0.0
  0
LINE
  8
ITEM_STPG
 10
510.115186
 20
233.5027069999999
 30
0.0
 11
497.237367
 21
233.5027069999999
 31
0.0
  0
LINE
  8
ITEM_50
 10
498.415466
 20
230.3272809999999
 30
0.0
 11
498.915466
 21
230.615956
 31
0.0
  0
POLYLINE
  8
ITEM_50
 66
     1
 10
0.0
 20
0.0
 30
0.0
 70
     1
  0
VERTEX
  8
ITEM_50
 10
508.915466
 20
236.389458
 30
0.0
  0
VERTEX
  8
ITEM_50
 10
503.915466
 20
239.27621
 30
0.0
  0
VERTEX
  8
ITEM_50
 10
498.915466
 20
236.389458
 30
0.0
  0
VERTEX
  8
ITEM_50
 10
498.915466
 20
230.615956
 30
0.0
  0
VERTEX
  8
ITEM_50
 10
503.915466
 20
227.729204
 30
0.0
  0
VERTEX
  8
ITEM_50
 10
508.915466
 20
230.615956
 30
0.0
  0
SEQEND
  8
ITEM_50
  0
POLYLINE
  8
ITEM_50
 66
     1
 10
0.0
 20
0.0
 30
0.0
 70
     1
  0
VERTEX
  8
ITEM_50
 10
509.415466
 20
236.6781339999999
 30
0.0
  0
VERTEX
  8
ITEM_50
 10
503.915466
 20
239.85356
 30
0.0
  0
VERTEX
  8
ITEM_50
 10
498.415466
 20
236.6781339999999
 30
0.0
  0
VERTEX
  8
ITEM_50
 10
498.415466
 20
230.3272809999999
 30
0.0
  0
VERTEX
  8
ITEM_50
 10
503.915466
 20
227.151854
 30
0.0
  0
VERTEX
  8
ITEM_50
 10
509.415466
 20
230.3272809999999
 30
0.0
  0
SEQEND
  8
ITEM_50
  0
LINE
  8
ITEM_50
 10
498.915466
 20
236.389458
 30
0.0
 11
498.415466
 21
236.6781339999999
 31
0.0
  0
LINE
  8
ITEM_50
 10
508.915466
 20
236.389458
 30
0.0
 11
509.415466
 21
236.6781339999999
 31
0.0
  0
LINE
  8
ITEM_50
 10
503.915466
 20
239.27621
 30
0.0
 11
503.915466
 21
239.85356
 31
0.0
  0
LINE
  8
ITEM_50
 10
503.915466
 20
227.729204
 30
0.0
 11
503.915466
 21
227.151854
 31
0.0
  0
CIRCLE
  8
ITEM_50
 10
503.915466
 20
233.5027069999999
 30
0.0
 40
3.149999999999999
  0
ENDSEC
  0
EOF
